20200212

HALLELUJAH INSTRUMENTAL GUITAR TAB (ROCKMILADY)


Leonard Cohen - Hallelujah instrumental electric guitar cover played by RockMilady
Amazing electric guitar instrumental arranged in standard tuning
Download the TAB under the video



ROCKMILADY HALLELUJAH TAB

GP5 + GP6 + PDF >>

Part 1

e-----------------------------------------------------------------------
B-----------------------------------------------------------------------
G-----------------------------------------------------------------------
D------5---------------5--5/7~-----------5~------------5--5-h7~---------
A---7---------------7-----------------7-------------7-------------------
E-----------------------------------------------------------------------


e-----------------------------------------------------------------------
B-----------------------------------------------------------------------
G-----------------------------------------------------------------------
D---5h7~----7~-------7--5h7p5~-----5\-3-/5~-----------------------------
A-----------------------------------------------------------------------
E-----------------------------------------------------------------------


e-----------------------------------------------------------------------
B-----------------------------------------------------------------------
G-----------7(9).--7~---------------------------------------------------
D-------5.--------------------------------------------------------------
A---5h7-----------------------------------------------------------------
E-----------------------------------------------------------------------



e-----------------------------------------------------------------------
B-----------------------------------------------------------------------
G-----------------------------------------------------------------------
D---3/5~-----------5.--5h7~----7--7/9--7--9.--9-/10~--------------------
A---------------7-------------------------------------------------------
E-----------------------------------------------------------------------


e-----------------------------------------------------------------------
B-----------------------------------------------------------------------
G-----4h5--5/7~-------5h7-7~----------5h7-(9)--------(9)-(7)~----p5~----
D---7-------------------------------------------------------------------
A-----------------------------------------------------------------------
E-----------------------------------------------------------------------

 etc ...