20200208

ROB BOEKHOLT ONCE TAB (GUITAR INSTRUMENTAL)


Rob Boekholt - Once guitar cover played by Ton Tergouw
Vintage guitar instrumental with backing track
Download the TAB under the video



ROBBIE BOEKHOLT ONCE TAB

GP5 + GP6 + PDF >>

Part 1

e---7-----8-9---------9-9~----------------------------------------------
B-----------------------------------------------------------------------
G-----------------------------------------------------------------------
D-----------------------------------------------------------------------
A-----------------------------------------------------------------------
E-----------------------------------------------------------------------


e---7h9p7\5---4---------------------------------------------------------
B---------------7---5-------5~------------------------------------------
G---------------------6---7------------------6-6h7-6-4~-----------------
D-----------------------------------------------------------------------
A-----------------------------------------------------------------------
E-----------------------------------------------------------------------


e---------------------7---7.----7-7~------------------------------------
B-----------------------------------------------------------------------
G---4h6p4\3---4h6---4---------------------------------------------------
D-----------------------------------------------------------------------
A-----------------------------------------------------------------------
E-----------------------------------------------------------------------



e---5h7p5\4---4---------------------------------------------------------
B---------------7---7-5---5-3h5p3-2~------------------------------------
G-----------------------------------------------------------------------
D-----------------------------------------------------------------------
A-----------------------------------------------------------------------
E-----------------------------------------------------------------------


e-----------------------------------------------------------------------
B---5.---4.---3-------------8~------------------------------------------
G---6.---5.---4---------6-----------------------------------------------
D-----------------7-----------------------------------------------------
A-----------------------------------------------------------------------
E-----------------------------------------------------------------------


e----------10--------10-------------------------------------------------
B---2/10----------10--------10------------------------------------------
G--------------------------------11~------------------------------------
D-----------------------------------------------------------------------
A-----------------------------------------------------------------------
E-----------------------------------------------------------------------

 etc ...







DOWNLOAD THIS TAB IN GUITAR PRO



  • click 'Free Download'
  • add your e-mail address
  • you will get an e-mail with your download links (in a few seconds)
  • download the Guitar Pro 6 tab + GP5 + PDF for free
  • and that's all ...