20200228

SERTAB ERENER BAHCEDE TAB (LIVE ACOUSTIC)


Sertab Erener - Bahçede live version played with a single acoustic guitar
The guitarist is called Gültekin Kaçar
Download the TAB under the video



SERTAB ERENER BAHCEDE ACOUSTIC TAB

GP5 + GP6 + PDF >>

Intro

e---4h5~~~----------------4h5---4h5p4--4--7--4--4h5~~~------------------
B------------------------------------6----------------------------------
G-----------------------------------------------------------------------
D-----------------------------------------------------------------------
A-----------------------------------------------------------------------
E-----------------------------------------------------------------------


e---7--7h8~~~------------7h8~--7-h8p7----7-8-10/12-12~-----10-8-7~~~----
B------------------------------------10---------------------------------
G-----------------------------------------------------------------------
D-----------------------------------------------------------------------
A-----------------------------------------------------------------------
E-----------------------------------------------------------------------


e-------0.------0---1.------0.------0-----------------------------------
B-------1.------1---3.------0.------1-----------------------------------
G-------2.------2---2.------1.------2-----------------------------------
D-------------------0.--------------------------------------------------
A---0-------------------------------0-----------------------------------
E---------------------------0.------------------------------------------



Verse

e-----------0---------------0-------------------------------------------
B-------1-------1-------1-------1-----------3---------------3-----------
G---------2-------2-------2---2---2-----2-------2-------2-------2-------
D-----2-------2-------2---------------3---3---3---3---3---3---3---3-----
A---0---------------0---------------0---------------0-------------------
E-----------------------------------------------------------------------


e-----------0---------------0---------------0---------------0-----------
B-------1-------1-------1-------1---------3---3-----------0-------------
G---------2-------2-------2---2---2-----2-------2-------1---------------
D-----2-------2-------2---------------3-----------3---2-----------------
A---0---------------0---------------2-----------------------------------
E---------------------------------------------------0-------------------

 etc ...







DOWNLOAD THIS TAB IN GUITAR PRO



  • click 'Free Download'
  • add your e-mail address
  • you will get an e-mail with your download links (in a few seconds)
  • download the Guitar Pro 6 tab + GP5 + PDF for free
  • and that's all ...