20200221

Y Vân - Lòng Mẹ FINGERSTYLE GUITAR TAB (Văn Anh)


Y Vân - Lòng Mẹ (Mother's Heart) acoustic fingerstyle guitar cover played by Văn Anh
Beautiful vietnamese song in standard tuning
Download the TAB under the video



Văn Anh - Lòng Mẹ TAB

GP5 + GP6 + PDF >>

Part 1

e--------------------------------------------0---------------0----------
B--------------------------------------------0---------------0----------
G-------0---2---4~-----2-0---2--p0-----------0---------------0----------
D---2--------------------------------2-----------0---2------------------
A----------------------------------------------------------------2------
E------------------------------------0---------------0------------------


e-----------0---2---3-----2h3p2p0-------2--p0---------------------------
B-------0---------------------------------------------------------------
G-----------------------------------------------------------------------
D-----------------------------------------------------------------------
A-------------------3---------------------------------------------------
E---0-------------------------------------------------------------------


e----------------------------0------------------------------------------
B---0----------------0-------0------------------------------------------
G-----------0----------------2------------------------------------------
D-------0-------\4-------1----------------------------------------------
A--------------------2---------------2.---------------------------------
E---3----------------------------2--------------------------------------



e--------------------------------------------0---------------0----------
B--------------------------------------------0---------------0----------
G-------0---2---4~-----2-0---2--p0-----------0---------------0----------
D---2--------------------------------2-----------0---2------------------
A----------------------------------------------------------------2------
E------------------------------------0---------------0------------------


e-------0h3-0-----------------------------------------------------------
B---------------3~---0----------------0---------------------0-----------
G--------------------------2p0---2.---2---------------2-----------------
D------------------------0------------1-----------4---------------------
A-----------------------------------------------------------------------
E---0----------------3--------------------------------------------------

 etc ...







DOWNLOAD THIS TAB IN GUITAR PRO



  • click 'Free Download'
  • add your e-mail address
  • you will get an e-mail with your download links (in a few seconds)
  • download the Guitar Pro 6 tab + GP5 + PDF for free
  • and that's all ...