20200326

BILLY STRINGS BROWN'S FERRY BLUES TAB (STUDIO 31 WEST)


Billy Strings plays Brown's Ferry Blues live at Studio 31 West
It's in standard tuning with Capo on the 2nd fret
Download the TAB under the video



BILLY STRINGS BROWN'S FERRY BLUES TAB

GP5 + GP6 + PDF >>

- Capo on the 2nd fret -

Intro

e----------3.--3-----3---------3-----0----------------------------------
B--0-------3.--3---3---5-3-----3---0-0-1---1---------1-1---1------------
G--2--/4-----------4-------4-------4---3---2---0-----0-3---2---0-0------
D------------------------------------------------0-2p0-------------2-0--
A-----------------------------------------------------------------------
E-----------------------------------------------------------------------


e----------------------0---------------0-----3-----2-----2---2-0-0------
B----------------------0---3.--2.--1---1-----1-----1---1-1---1-1-1------
G------------------0-------4.--3.--2---2---2-------2---2---2------------
D------------0-2p0-----------------------------0---0---0---0------------
A------0-1/2---------------------------------------0--------------------
E--3-----------------------------------------------x--------------------


e--------3.--3-----3---------3-----0------------------------------------
B--------3.--3---3---5-3-----3---0-0-1---1---------1-1---1--------------
G--2/4-----------4-------4-------4---3---2---0-----0-3---2---0----------
D----------------------------------------------0-2p0--------------------
A-----------------------------------------------------------------------
E-----------------------------------------------------------------------



e--3-1---------------------0-0------------------------------3-3---3-3-3-
B------3-1-----------------3-3------------------------------3-3---3-3-3-
G----------3/4-0-----0-----2-2----0---------------------0---0-0---0-0-0-
D----------------0-3---0---0----------------------0-2p0---------0-------
A------------------------------/5---3-2-----0-1/2-----------------------
E---------------------------------------3-------------------------------


e-------3-3---3-3-3-----3-3---3-3-3-------------------------------------
B-------3-3---3-3-3-----3-3---3-3-3-------------------------------------
G-------0-0---0-0-0-----0-0---0-0-0-------------------------------------
D-------0-------0-------0-------0---------------------------------------
A-----------x---------------x-------------------------------------------
E---2h3-----3-------2h3-----3-------------------------------------------

 etc ...