20200312

LARRY THE LOGGER TWO-STEP TAB (PAT SIMMONS LIVE AT NORMAN'S RARE GUITARS)


Pat Simmons (The Doobie Brothers) plays his song Larry the Logger Two-Step
Live version recorded at Norman's Rare Guitars
Download the TAB under the video



PAT SIMMONS LARRY THE LOGGER TWO-STEP TAB

GP5 + GP6 + PDF >>


e-----------0.----3---------------0-----------------------0-------------
B-----4.----------------------4---------1-------------4-----------------
G---0-----------------------0-----------------0-----0-------------------
D-----------3.---------/3-----------3.----------3-----------3-----------
A-----------------3-----------------------3-----------------------------
E-----3.----------------------3-----------------------3-----------------


e-----------------------------------------------0.----------------------
B---3/5---------5\4-----3.----1-----------4.----------------------------
G---------0-------------------------------------0.----------------------
D----/5-----5----\4-----3.---------/3-----3.----------------------------
A-----------------------------3-----------------------------------------
E-----------------------------------------------------------------------


e---3-----------5.--------0-----------------0---------------------------
B-------------------4-------------------4---------1---------------------
G-------------0-------0---------------0---------------------------------
D---------2-----------------------3-----------3-------------------------
A---3-----------------------3-------------------------------------------
E---------------3.----------------------3-------------------------------



e-----------------------------------------------------------------------
B---------------------0---1-----------0---------------------------------
G-------------0-----0-----------------------1-----2---------------------
D---------2-----------3-----------2-----------0-------------------------
A---3-----------------------3-------------------------------------------
E---------------3-----------------------0-------------------------------


e-----------------------------------------------------------------------
B-------1-------0h1p0-----------------------1---------------------------
G---------------------0-----0h2p0-----0---------------------------------
D---------2-----------2-----------3-----------2--/4---------------------
A---0-----------------------------------3-------------------------------
E---------------0-----------1-------------------------------------------

 etc ...