20200323

LOCAL HERO WILD THEME TAB (GOING HOME - DIRE STRAITS)


Local Hero - Wild Theme is a Dire Straits song called Going Home
Guitar cover played by Roberto Sánchez Perea
Download the TAB under the video



GOING HOME TAB

GP5 + GP6 + PDF >>

Part 1

e-----------------------------------------------------------------------
B------------7-----7-------7-----------------7~-------------------------
G------------7---7---9---9---------------7-9----------------------------
D---7~---------7-------7-----7---7-----7--------------------------------
A------------------------------9---9------------------------------------
E-----------------------------------------------------------------------


e-----------------------------------------------------------------------
B---10-------8-------10-----10-9-----10-------------7-9-10~-------------
G---7----7-----------6----6--------6----6---6-----6---------------------
D------7---7---------7--7--------7--------7---7-------------------------
A-----------------------------------------------------------------------
E-----------------------------------------------------------------------


e-----------------------------------------------------------------------
B------7-9-10~-----12-10-9~-----\7-7~-----------------------------------
G---/6------------------------------------------------------------------
D-----------------------------------------------------------------------
A-----------------------------------------------------------------------
E-----------------------------------------------------------------------



e-----------------------------------------------------------------------
B---8-------7-----8------------5-7-8~-----------------------------------
G-------7-------7---4~---------4----------------------------------------
D-----0---0---0----------------5----------------------------------------
A-----------------------------------------------------------------------
E---7-------------------------------------------------------------------


e-----------------------------------------------------------------------
B------5-7-8~-----10-8-7~-----\5----------------------------------------
G---/4------------------------------------------------------------------
D-----------------------------------------------------------------------
A-----------------------------------------------------------------------
E-----------------------------------------------------------------------


e-----------------------------------------------------------------------
B---7-----7-------7-------------7.---7-----7-5-----7-8-----10p8-7~---\5-
G---7---7---9---9-----------7--------6---6-------6-------6--------------
D-----7-------7-----7---7-----7------5-5-------5-------5----------------
A---------------------9---9---------------------------------------------
E-----------------------------------------------------------------------

 etc ...