20200304

SILENCE IS GOLDEN INSTRUMENTAL GUITAR TAB (JASON HILL)


The Tremeloes - Silence Is Golden instrumental guitar cover played by Jason Hill
Easy guitar instrumental with backing track
Download the TAB under the video



SILENCE IS GOLDEN TAB

GP5 + GP6 + PDF >>

Part 1

e-----------------------------------------------------------------------
B---------------------------------------9-------7-----------------------
G---------------------------------------------------9-------------------
D---6-------4---6/7-7~------6---7/9-9-----------------------------------
A-----------------------------------------------------------------------
E-----------------------------------------------------------------------


e-----------------------------------------------------------------------
B---9---7.--9-----------9---7-----------7-/-9~------10/12-\---7~--------
G---------------9-------------------------------------------------------
D-------------------------------9---------------------------------------
A-----------------------------------------------------------------------
E-----------------------------------------------------------------------


e-----------------------------------------------------------------------
B---------------------------------------9-------7-----------------------
G---------------------------------------------------9-------------------
D---6-------4---6/7-7~------6---7/9-9-----------------------------------
A-----------------------------------------------------------------------
E-----------------------------------------------------------------------



e-----------------------------------------------------------------------
B---9---7.--9-----------9---7-----------7-------------------------------
G---------------9---------------------------9---------------------------
D-------------------------------9---------------------------------------
A-----------------------------------------------------------------------
E-----------------------------------------------------------------------


e-----------------------------------------------------------------------
B-------17---16---------------------------------------------------------
G-----------------18---16--------------------------------1~-------------
D---------------------------18---------------4/6-2-----4----------------
A-----------------------------------------------------------------------
E-----------------------------------------------------------------------


e-----------------------------------------------------------------------
B-------17---16---------------------------------------------------------
G-----------------18---16--------18-------------------------------------
D---------------------------18--------18-------4/6-2-----4-2~-----------
A-----------------------------------------------------------------------
E-----------------------------------------------------------------------

 etc ...







DOWNLOAD THIS TAB IN GUITAR PRO



  • click 'Free Download'
  • add your e-mail address
  • you will get an e-mail with your download links (in a few seconds)
  • download the Guitar Pro 6 tab + GP5 + PDF for free
  • and that's all ...