20200424

ACOUSTICIAN DON'T CRY SOLO TAB


Guns N Roses - Don't Cry acoustic guitar solo cover played by Acoustician
It's in standard tuning with a rhythm guitar backing track
Download the TAB under the video



DON'T CRY ACOUSTIC SOLO TAB

GP5 + GP6 + PDF >>


e-----------------------------------------------------------------------
B--------------------------------------------------7~-------------------
G--------6/8~---------6p4-6~-----------6/8\6-4-6/8----------------------
D-----------------------------------------------------------------------
A-----------------------------------------------------------------------
E-----------------------------------------------------------------------


e-----------------------------------------------------------------------
B-------------7~--------------------------------------------------------
G---8\6-4-6/8------8q6-4.-----------------------------------------------
D---------------------------6~---4.-------------------------------------
A-------------------------------------4(5)(4)-2.------------------------
E-----------------------------------------------------------------------


e-----------------------------------------------------------------------
B-------------------------------------/16---\12~------------------------
G---6/8-8/9-9/11----------------11h13--------------13~------------------
D--------------------9h11-11/13-----------------------------------------
A---4/6-6/7-7/9-9h11----------------------------------------------------
E-----------------------------------------------------------------------



e-----------------------------------------------------------------------
B-----------------------------------------------------------------------
G---11.-----------------------------------------------------------------
D-------13.-12h13p12h11-12p11\9---11p9----9-----------------------------
A------------------------------11-----11p9---11p9-11.-------------------
E-----------------------------------------------------------------------


e----------------14-----------------------14-14-------------------------
B---14(16)----------(16)-(14)-12-14(16)---------(16)-(14)-12\11---------
G-----------------------------------------------------------------------
D-----------------------------------------------------------------------
A-----------------------------------------------------------------------
E-----------------------------------------------------------------------

 etc ...