20200410

BLUE CHEESE UNCROWNED QUEEN TAB


Blue Cheese - Uncrowned Queen from the album called Reborn into Void
Cool headbanger riffs throughout the whole song :)
Download the TAB under the video



BLUE CHEESE UNCROWNED QUEEN TAB

GP5 + GP6 + PDF >>

Intro

e-----------------------------------------------------------------------
B-----------------------------------------------------------------------
G-----------------------------------------------------------------------
D--------------------------------------------9h11p9---------------------
A---9-----11----11----11--9-11--------7h9/11--------11------------------
E---7-----9-----9-----9---7-9-----7h9-----------------------------------


e-----------------------------------------------------------------------
B-----------------------------------------------------------------------
G-----------------------------------------------------------------------
D---------------11p9----9~----------------------------------------------
A---9-----11---------11-------11\9p7-10~----10~----9~-------------------
E---7-----9-------------------------------------------------------------


e-----------------------------------------------------------------------
B-----------------------------------------------------------------------
G-----------------------------------------------------------------------
D--------------------------------------------9h11p9---------------------
A---9-----11----11----11--9-11--------7h9/11--------11------------------
E---7-----9-----9-----9---7-9-----7h9-----------------------------------



e-----------------------------------------------------------------------
B-----------------------------------------------------------------------
G-----------------------------------------------------------------------
D-----------------------------------------------------------------------
A---9-----11----6-----9-----5-----6-----2-----5-------------------------
E---7-----9-----4-----7-----3-----4-----0-----3-------------------------


e-----------------------------------------------------------------------
B-----------------------------------------------------------------------
G-----------------------------------------------------------------------
D--------------------------------------------9h11p9---------------------
A---9-----11----11----11--9-11--------7h9/11--------11------------------
E---7-----9-----9-----9---7-9-----7h9-----------------------------------


e-----------------------------------------------------------------------
B---------------------11(12)-----11~----11(12)(11)-9-----9-----9--------
G---------------------11(12)-----11~----11(12)(11)-9-----9-----9---x----
D---------------9--------------------------------------------------11---
A---9-----11----7-------------------------------------------------------
E---7-----9-----7-------------------------------------------------------

 etc ...