20200418

EMERALD GUITARS X30 DEMO TAB (PAT MULDOWNEY)


Pat Muldowney plays a nice relaxing song with an Emerald X30 acoustic guitar
It's arranged in Dropped D tuning and no capo is used
Download the TAB under the video



PAT MULDOWNEY EMERALD X30 DEMO TAB

GP5 + GP6 + PDF >>

Part 1

e-----------------0-----------------------------------------------------
B-------------3-----3---------------------------------------------------
G-----------------------------0--2--2h4---------------------------------
D---2/4---------4-------2-2/4-------------------------------------------
A---------------------0-------------------------------------------------
D---0-------0-----------------------------------------------------------


e-----------------0---------------0-------------------------------------
B-------------3-----3---------0h2---3-----------------------------------
G-------------------------0h2-------------------------------------------
D---2/4---------4-------2-----------------------------------------------
A---------------------0-------------------------------------------------
D---0-------0-----------------------------------------------------------


e---------------0-------------------------------------------------------
B-----------3-----3-----------------------------------------------------
G-------------------------------------------0---------------------------
D---4---------4---------4---4\2p0-2h4------2--2-0--h2p0--0--------------
A---------------------0---------------0---0------------4----------------
D---0-----0---------0---------------------------------------------------



e--------------------------0--------------------------------------------
B---------3~---------------3--------------------------------------------
G-------2------2---2-----2----------------------------------------------
D-----0----------0-----0---------0--------------------------------------
A------------------------------0---0------------------------------------
D---0--------0-------0-------0------------------------------------------


e-----------------------------------------------------------------------
B-----------------------------------------------------------------------
G---------------0-----0----------0--2--4--------------------------------
D---2/4-----4-------4---\2-2-2/4----------------------------------------
A------------------------0----------------------------------------------
D---0---------0---0-----------------------------------------------------

 etc ...