20200410

MAURICIO CAILET SUNSET BLVD TAB (GUITAR IDOL 8)


Mauricio Cailet plays his instrumental electric guitar song Sunset Blvd.
Incredible sound, vibe and power ...
Download the TAB below



MAURICIO CAILET SUNSET BLVD TAB

GP5 + GP6 + PDF >>

Part 1

e-----------------------------------------------------------------------
B---------------7<19>-h8p7---------------------5<17>--------------------
G--------------------------7<19>-----------------------6<18>------------
D-------7<19>--------------------------7<19>----------------------------
A-----------------------------------------------------------------------
E-----------------------------------------------------------------------


e-----------------------------------------------------------------------
B-------------3<15>-----------------------------------------------------
G-----------------------4<16>~~~----------------------------------------
D---5<17>---------------------------------------------------------------
A-----------------------------------------------------------------------
E-----------------------------------------------------------------------


e-----------------------------------------------------------------------
B---------------7<19>-h8p7----------------------10<22>------------------
G--------------------------7<19>----------------------------------------
D-------7<19>--------------------------11<23>----------------11<23>-\---
A-----------------------------------------------------------------------
E-----------------------------------------------------------------------



e-----------------------------------------------------------------------
B-------------8<20>-----------------------------------------------------
G-----------------------7<19>~~~----------------------------------------
D---9<21>---------------------------------------------------------------
A-----------------------------------------------------------------------
E-----------------------------------------------------------------------


e-----------------------------------------------------------------------
B---------------7<19>-h8p7---------------------5<17>--------------------
G--------------------------7<19>-----------------------6<18>------------
D-------7<19>--------------------------7<19>----------------------------
A-----------------------------------------------------------------------
E-----------------------------------------------------------------------


e-------------5<17>-----------------------------------------------------
B-----------------------3<15>-------------------------------------------
G-----------------------------------------------------------------------
D---5<17>---------------------------------------------------------------
A-----------------------------------------------------------------------
E-----------------------------------------------------------------------


e-----------------------------------------------------------------------
B---------------7<19>-h8p7----------------------10<22>------------------
G--------------------------7<19>----------------------------------------
D-------7<19>--------------------------11<23>---------------------------
A-----------------------------------------------------------------------
E-----------------------------------------------------------------------


e----------------7------------------------------------------------------
B-----------10----------------------------------------------------------
G---------7-------------------------------------------------------------
D-------9---------------------------------------------------------------
A-----7-----------------------------------------------------------------
E---0-------------------------------------------------------------------

 etc ...