SPORTING LIFE BLUES TAB (TOM PALEY)


Brownie McGhee - Sporting Life Blues guitar cover played by Tom Paley
It's in standard tuning and starts at 1:04 on this record by freshwatersmusic
Download the TAB under the video



SPORTING LIFE BLUES TAB

PDF >>

Intro

e--------12--12-12-12--12-12-12--12-12-12--12---9-----------------------
B---/9----------------------------------------------9.---8(9)-----------
G---/9----------------------------------------------------------9-\-----
D-----------------------------------------------------------------------
A-----------------------------------------------------------------------
E-----------------------------------------------------------------------


e--------12-------12-----10-----12---10-----12-10-\---------------------
B---/9---9----9---9------9------9----9------9--9--\---------------------
G---/9------9---9-9----9------9---------9------9--\---------------------
D-----------------------------------------------------------------------
A-----------------------------------------------------------------------
E-----------------------------------------------------------------------


e-------------------------------------------3'-0------------------------
B---------------2.--2-----2---------------------------------------------
G---2.--2-2-----------2-----2.--2-2---2------------0h1------------------
D---------------2.--2-------------------2.--2---------------------------
A---0.--0-3---4-------3---4-0.--0-3---4---------------------------------
E-----------------------------------------------------------------------



e-------0-2---3-4---4-4---4-4---4-4---4-0---0-0---0-0---0-2---0---------
B-------------------5-5---5-5---5-5---5-2---2-2---0-1---1-1---0---------
G-------1-2---3-4-4-----4-----4-----4-----2-----2-----2-----------------
D-----------------------------------------------------------------------
A-----------------------------------------------------------------------
E---0-------------------------------------------------------------------


e-------0-/4---4-0---0-2.--0--------------------------------------------
B-----0------0-----2-------0---------0-------------0--------------------
G---1---1-/4-----3-----2.----1.----------------------2------------------
D----------------------------------------1.----1---------1--------------
A--------------------------------0-1---2--------------------------------
E--------------------------------------------2-------------2---0--------


e--------------------------------------4-----0---2---0------------------
B---------0---------0----------------0---0-----------0------------------
G-----3-------2-------2---0h1-------/4-----3---3-2-------1.-------------
D-------2-----1---------------------------------------------------------
A-----------------------------------------------------------------------
E---3-----------2-----2-------0-----------------------------------------


e---------------------------------0-------------------------------------
B-------0---------0---------0-------------------------------------------
G---------------------2-------2-----------------------------------------
D-----------1.----1-----------------------------------------------------
A---0-1---2-------------------------------------------------------------
E---------------2-------2-----------------------------------------------

 etc ...