20200405

PETER BRODERICK WITH THE NOTES IN MY EARS TAB


Peter Broderick - With The Notes In My Ears is a nice relaxing acoustic guitar song
Arranged in standard tuning with Capo on the 3rd fret
Download the TAB under the video



WITH THE NOTES IN MY EARS TAB

GP5 + GP6 + PDF >>

 - Capo on the 3rd - 

Intro

e-----0-------------------------------0---------------------------------
B---------1---1-------1-------1-----------0-----------------------------
G-------2---------0-------0-------0h2---2-------------------------------
D---3-----------2-------2-------2---------------------------------------
A-----------3-------3-------3-------------------------------------------
E-----------------------------------------------------------------------


e-----------------------------------------------------------------------
B-----0-------0-------0-------1-----------------------------------------
G---------0-------0-------0-------0-------------------------------------
D-------0-------0-------0-------2---------------------------------------
A---------------------------0-------------------------------------------
E---3-------3-------3---------------------------------------------------


e-------------------------------------------------------------0---------
B-----1-------1-------1-------1-------1-------1-------1-----------1-----
G---------0-------0-------0-------0-------2-------2-------0-----2-------
D-------2-------2-------2-------0-------3-------3-------3---3-----------
A---3-------3-------3-------0-------------------------------------------
E-----------------------------------1-------1-------1-------------------



e-----------------------------0-----------------------------------------
B-----1-------1-------1-----------0---0-------0-------0-------1---------
G---------0---------------0h2---2---------0---------------0-------0-----
D-------2-------0h2-----2---------------0-------0h2-----0-------2-------
A---3-------3-------3---------------------------------------0-----------
E-----------------------------------3-------3-------3-------------------


e-------------------------------------------------------------0---------
B-----1-------1-------1-------1-------1-------1-------1-----------1-----
G---------0-------0-------0-------0-------2-------2-------0-----2-------
D-------2-------2-------2-------0-------3-------3-------3---3-----------
A---3-------3-------3-------0-------------------------------------------
E-----------------------------------1-------1-------1-------------------

 etc ...