20200515

BILLY STRINGS DON'T THINK TWICE TAB (BOB DYLAN COVER)


Bob Dylan - Don't Think Twice bluegrass guitar cover played by Billy Strings
It's in standard tuning with Capo on the 5th fret
Download the TAB under the video



BILLY STRINGS DON'T THINK TWICE TAB

GP5 + GP6 + PDF >>

- CAPO on the 5th -

Intro

e---------------0-----3---0---------0-----------------------------------
B-------------------------------3-------3-------------------------------
G---------------------------0-------------------------------------------
D-------------------2-------------2-------2-----------------------------
A-------0.--2.--3-------3-------2---------------------------------------
E---3.--------------------------------0---------------------------------


e-----------------------------------------------------------------------
B---1-------0-------------1---------------------------------------------
G-------2.------------2-------2-----------------------------------------
D---------------0-------3-------3p0-------------------------------------
A---0-------------------------------------------------------------------
E-----------3-------1-------1-------------------------------------------


e---------3---0-----0h1---0---------------------------------------------
B-----------------------------0-----1-------------1---------------1-----
G-----0---------0-----------------------------0---------------0---------
D-------2---------------0-------0-------2-------2-------2-------2-------
A---3-------------------------------3---------------3-------------------
E-------------------3-------3---------------3---------------3-----------



Verse

e-----------------------------------------------------------------------
B---------1-------1-------3-------0-------1-------1-------1-------0-----
G-----0-------0-------0-------0-------2-------2---------------0---------
D-------2-------2-------0-------0-------2-------2-------2-------0-------
A---3-------3-------2-------2-------0---------------0-------------------
E-------------------------------------------0---------------3-----------


e-------------------------------------------------3---------------------
B---------1-------1-------1---------------1-------------0-----0---------
G-----2-------2-------2-------2---0---0-------0---------0---------0-----
D-------3-------3-------3-------0-------2-------0-------0-------0-------
A-----------------------------------3-------3---------------------------
E---1-------1-------1-------1-----------------------3-------3-----------

 etc ...