HAPPY BIRTHDAY FINGERSTYLE TAB (LIFA LATIFAH)


Happy Birthday Song intermediate fingerstyle guitar cover played by Lifa Latifah
It's arranged in Dropped D tuning and no Capo is needed
Download the TAB under the video



HAPPY BIRTHDAY FINGERSTYLE TAB

GUITAR PRO + PDF >>

e---------5-----------2-------------------------------------------------
B---------------------3----------------/3---3-2/3\2p0-------------------
G---2---2-------2-----2----------------/4---4-0-------------------------
D---------0-----------------------------------0-------------------------
A-----------------------------------------------------------------------
D---------------------------------------------5-------------------------


e-----------------------------------------------------------------------
B-----------------------------------------------------------------------
G---<7>-----<12>--------------------------------------------------------
D---<7>-----<12>--------------------------------------------------------
A-----------------------------------------------------------------------
D-----------------------------------------------------------------------


e-------------------------------------0h2-------------------------------
B----/8---8-7-\---3---------5/6\5-----3---------------------------------
G----/9---9-7-\---3---------6---------2---------------------------------
D-----------0-----3-------------------0---------------------------------
A-----------0---------------0-------------------------------------------
D-----------------------------------------------------------------------



e-----------------------------------------------------------------------
B---------------------------3---2---------------------------------------
G---2---2-2/4---------2---------2-----2/4---2---------------------------
D---------0---------0-----0-----------------2---------------------------
A---------------x-----------x-----0-----x---0---------------------------
D-----------------------------------------------------------------------


e---------------------------------0-------------------------------------
B---------------------------------2-------------------------------------
G---------2---2-2/4---------2-----2-----7-\-----------------------------
D-------2-----------------------------------4/5---4---------------------
A---------x-----0-----x---0-----0-x---0---------------------------------
D---------------------------------------0-----x---0---------------------

 etc ...