MOLLY TUTTLE MARTIN D-18 TAB (GUITAR DEMO)


Molly Tuttle warms up a 1938 Martin D-18 acoustic guitar with a cool bluegrass song
Video and guitar provided by Carter Vintage Guitars
Download the TAB under the video



MOLLY TUTTLE MARTIN D-18 GUITAR DEMO TAB

PDF + GUITAR PRO >>

Part 1

e---0h2---0-------------------------------------------------------------
B-----------3---------3-----------------------0-----3-------------------
G-------------4-2---2---4-2-------------------0-----2h4---2-------------
D-----------------4---------4\2-0-----0-----0---------------4-2-0-------
A---------------------------------2-2---2/5-----0-----------------2-----
E-----------------------------------------------------------------------


e-------3-----3---------------------------------------------------------
B-------3-----3---------------------------------------------------------
G-------0-----0-----------------------------2-4-2---------2-----2-------
D-------0-------------------------0---------------4-2-0-4-----2---------
A---2---2-----------2-0-2---2-0-2---2---0-------------------0-----------
E-------3-------3-3-----------------------------------------------------


e---0h2---0-------------------------------------------------------------
B---0-------3---------3-----------------------0-----3-------------------
G-------------4-2---2---4-2-------------------0-----2h4---2-------------
D-----------------4---------4\2-0-----0-----0---------------4\2-0-------
A---------------------------------2-2---2/5-----0-----------------2-----
E-----------------------------------------------------------------------



e-------3-----3---------------------------------------------------------
B-------3-----3-----------------------------------------------0---------
G-------0-----0-----------------------------2-4-2-------------0---2-----
D-------0-------------------------0---------------4-2-0-----0---0-------
A---2---2-----------2-0-2---2-0-2---2---0---------------4/5-------------
E-------3-------3-3-----------------------------------------------------


e-----0h2-0-----------------2-2-----------------------------------------
B---3-------3---------3-3---3-3-------------3-------3-----3-----3-------
G-------------4-2---2---4---4-------4-2-4---4-2-4-4-4-2-4---4-2-4-------
D-----------------4-----4-------4-4-------------------------------------
A-----------------------2-----------------------------------------------
E-----------------------------------------------------------------------

 etc ...