20200502

O SOLE MIO (IT'S NOW OR NEVER) INSTRUMENTAL GUITAR TAB


O Sole Mio (It's Now or Never) instrumental guitar cover by Giorgio Zizzo
Easy guitar instrumental with backing track
Download the TAB under the video



O SOLE MIO (IT'S NOW OR NEVER) TAB

GP5 + GP6 + PDF >>

Part 1

e-----------------------------------------------------------------------
B-----------------------------------------------------------------------
G-------2-(1)-(2)---1------------------------1---1----------------------
D-----------------------2-------2~-------------------4---0--------------
A-----------------------------------------------------------------------
E-----------------------------------------------------------------------


e-----------------------------------------------------------------------
B-----------------------------------------------------------------------
G-------1---1-----------------------------------------------------------
D---------------4---0~-------0~-------------------0---2~----------------
A-----------------------------------------2-/-4-------------------------
E-----------------------------------------------------------------------


e-----------------------------------------------------------------------
B-----------------------------------------------------------------------
G--------------------------------------2~-------------------------------
D-----2h3-0-2-2h3---3~-------------0----------3---p2-----2~-------------
A-----------------------------------------------------------------------
E-----------------------------------------------------------------------



e-----------------------------------------------------------------------
B-----------------------------------------------------------------------
G-----------------------------------------------------------------------
D-------------------2~-----2-2~-----------------------------------------
A-----2/4---2---0-------------------------4---2-----0~~~----------------
E-----------------------------------------------------------------------

 etc ...