20200507

PRELUDIO AZUL CLASSICAL GUITAR TAB (ANGEL G. PINERO)


Angel G. Piñero - Preludio Azul classical guitar cover by Ramón Vergara
Amazing performance recorded by Cithara Vis
Download the TAB under the video



PRELUDIO AZUL GUITAR TAB

GP5 + GP6 + PDF >>

Part 1

e---0---------------0---------------7-----------------------------------
B-----0---0-----0-----0---0-----0-----0---0-----0-------0-------0-------
G-------0-----0---0-----0-----0---0-----0-----0---0---0---0---0---0-----
D-----------2---------------2-----------------------5-------------------
A-------------------------------------------7---------------7-----------
E---0---------------0---------------0-----------------------------------


e---6---------------6---------------5-----------------------------------
B-----5---5-----5-----5---5-----5-----4---4-----4-------4-------4-------
G-------6-----6---6-----6-----6---0-----2-----2---2---2---2---2---2-----
D-----------5---------------5---------------4---------------4-----------
A-----------------------------------2---------------2-------------------
E---0---------------0---------------------------------------------------


e---3---------------3---------------2-----------------------------------
B-----0---0-----0-----0---0-----0-----0---0-----0-------0-------0-------
G-------0-----0---0-----0-----0---0-----2-----2---2---2---2---2---2-----
D-----------2---------------2---------------1---------------1-----------
A-----------------------------------2---------------2-------------------
E---0---------------0---------------------------------------------------



e-------------------2---------------------------------------------------
B---4-----------------------4-------0---------------0-------------------
G-----2---2-----2-----2---2---2---2---0---0-----0-----0---0-----0-------
D-------4-----4---4-----4-------4-------2-----2---2-----2-----2---2-----
A---2-------2-------2-------2---------------2---------------2-----------
E-----------------------------------0---------------0-------------------

 etc ...