20200612

ALL I ASK OF YOU CLASSICAL GUITAR TAB


Andrew Lloyd Webber - All I Ask Of You (Phantom of the Opera) classical guitar cover
Arranged in Dropped D tuning by Kimiyoshi Akiyama
Download the TAB under the video



ALL I ASK OF YOU TAB

PDF + GUITAR PRO >>

Part 1

e-----------------------------------------------------------------------
B-------------------3-------------------------------3-------------------
G-----------2---------------2---------------2---------------2-----------
D-------4-------4-------4-------4-------4-------4-------4-------4-------
A-----------------------------------------------------------------------
D---0-------------------------------0-----------------------------------


e---0---------------0-----------2---2-----------------------------------
B-----------3-----------------------------------------------------------
G---2-----------2---------------------------2---------------------------
D---4-------4-------------------------------4---------------4-----------
A-------0-------------------0-----------0---------------0---------------
D---0-------------------------------0-----------------------------------


e---0---------------0-----------2---5-----------------------7-----------
B-----------3-------------------2-------------------3-------7-----------
G---2-----------2---------------2---------------4-----------------------
D---4-------4-------------------------------4---------------------------
A-------0-------------------0-----------0-------------------------------
D---0-------------------------------0-----------------------------------



e---2---------------5---3-------2---5-------0---------------2-----------
B---2---------------2-----------------------0---------------0-----------
G---2-----------2---------------------------0-------0-------------------
D-----------0-----------------------------------0-----------------------
A-------0-------------------------------0-------------------------------
D---0-------------------------------0-----------------------------------


e---3-----------5\--3-------2-------5-------0---------------------------
B---5-------------------------------------------------------2-----------
G---5-------------------0---------------0-------------------0-----------
D-------------------------------------------------------2---------------
A---3---------------3---------------4---------------0-------------------
D-----------------------------------------------------------------------

 etc ...