20200919

LENNART CLERWALL ADAGIO TAB (LEAD GUITAR)


Lennart Clerwall and Friends - Adagio guitar cover played by Eugene Mago
Vintage instrumental guitar song played with a Fender Stratocaster
Download the TAB under the video



LENNART CLERWALL ADAGIO TAB

PDF >>

Intro

e---------------12------------------------------------------------------
B------------12----12-----------7-8-7-------7h8p7h8p7h8p7h8p7-----------
G------11-12----------12----8-9-------9-8-9-------------------9---------
D---14-------------------14---------------------------------------------
A-----------------------------------------------------------------------
E-----------------------------------------------------------------------


Part 1

e---7~-------7----------------------------------------------------------
B--------------------10-----8-7-----------------------------------------
G---------------------------------9---9~-----------\8---8~--------------
D-----------------------------------------------------------------------
A-----------------------------------------------------------------------
E-----------------------------------------------------------------------


e---8-------8-------7---------------------------------------------------
B---7---------------------10-8---7---7~------------8\7------------------
G---8--------------------------------------------------9----------------
D-----------------------------------------------------------------------
A-----------------------------------------------------------------------
E-----------------------------------------------------------------------


e---7/---12~-------12~-------10---12\---8-10---7-8~---------------------
B-----------------------------------------------------------------------
G-----------------------------------------------------------------------
D-----------------------------------------------------------------------
A-----------------------------------------------------------------------
E-----------------------------------------------------------------------


e---8-8-8-10-------10-------8---10---7-8------7~------------------------
B------------------------------------------10---------------------------
G-----------------------------------------------------------------------
D-----------------------------------------------------------------------
A-----------------------------------------------------------------------
E-----------------------------------------------------------------------


e---7-7-7-8-------8-------7---8------7----------------------------------
B---------------------------------10-----8-10~--------------------------
G-----------------------------------------------------------------------
D-----------------------------------------------------------------------
A-----------------------------------------------------------------------
E-----------------------------------------------------------------------

 etc ...