20200820

PAIGE ANDERSON & THE FEARLESS KIN WILD RABBIT TAB


Paige Anderson & The Fearless Kin play Wild Rabbit in Grass Valley CA
There is a cool bluegrass guitar solo around 0:53 (Capo on the 3rd fret)
Download the TAB under the video



WILD RABBIT SOLO TAB

PDF + GUITAR PRO >>

Solo

e-----------------------------------------------------------------------
B-------------0---0-------3---------5---3---------0---------------------
G---0-------0---2---2/4-4-----4-------------4\2-0-----------------------
D-------0-2---------------------0---------------------------------------
A-----------------------------------------------------------------------
E-----------------------------------------------------------------------


e-----------------------------------------------------------------------
B---------0-----------0-------------------------------------------------
G-------0-----0-----------0---0---0-------------------------------------
D---2-----------2--/5-------5---0---------------------------------------
A-----------------------------------------------------------------------
E-----------------------------------------------------------------------


e-----------------------------------------------------------------------
B-------------1-------------------------------------1---------0---0-----
G-----------0-----0---0---0---0---0-------2p0-------0h2---2-----0-------
D-------0h2-----2---2---0---------------2-----2---------2---------------
A---3-----------------------3---2---0-----------0-----------------------
E-----------------------------------------------------------------------


e-----------------------------------------------------------------------
B---------3---------5---3---------0-------------------------------------
G---2/4-------4-------------4\2-0-------0-----0-----------0-------0-----
D---------------0-------------------1h2---1h2-----------2-----0---------
A-----------------------------------------------1h2-------------2-------
E---------------------------------------------------0-------------------

 etc ...