20200703

A FELICIDADE TAB (ZÉ PAULO BECKER)


Tom Jobim/V. de Moraes - A Felicidade fingerstyle guitar cover by Zé Paulo Becker
It's arranged in standard tuning for solo guitar
Download the TAB under the video



ZÉ PAULO BECKER A FELICIDADE TAB

PDF + GUITAR PRO >>

Part 1

e--------0---5-------------------8.--7.---------------------------------
B------------5-------5-----5-----8.--5.--8\-----------------------------
G------------4---4---4-----4-------------7\-----------------------------
D--------------------------------7.--5.--7\-----------------------------
A--------------3---------------0----------------------------------------
E----------------------3------------------------------------------------


e-------------------------------0---------------------------------------
B---5-------------5-------5---------------------------------------------
G---4-------4-----4---4-------------------------------------------------
D-------5-------------5-----5-------------------------------------------
A---3-----------------3-------------------------------------------------
E-------------3---------------3-----------------------------------------


e---3-----------0---2---------------------------------------------------
B-------------------------------4.--------------------------------------
G-----------0-------2-------2-------------------------------------------
D---------4---------1---1---1-------------------------------------------
A-------2-------------2-------0-----------------------------------------
E-----0-------0---------------------------------------------------------



e---0---------------------------0---------------------------------------
B-----------------------------------------------------------------------
G---0-------6-------5-------4-------------------------------------------
D---4---0---5---0---3---0---3-------------------------------------------
A-------------0-------5-------------------------------------------------
E-----0-----------------------3-----------------------------------------


e---5-------------------8.--7.------------------------------------------
B---5-------5-----5-----8.--5.--8\--------------------------------------
G---4---4---4-----4-------------7\--------------------------------------
D-----------------------7.--5.--7\--------------------------------------
A-----3---------------0-------------------------------------------------
E-------------3---------------------------------------------------------


e-------------------------------0---------------------------------------
B---5-------------5-------5---------------------------------------------
G---4-------4-----4---4-------------------------------------------------
D-------5-------------5-----5-------------------------------------------
A---3-----------------3-------------------------------------------------
E-------------3---------------3-----------------------------------------

 etc ...