20200827

NOVEMBER RAIN ACOUSTIC TAB (GARETH RHODES)


Guns N Roses - November Rain acoustic cover played by Gareth Rhodes
It's a good fingerpicking arrangement in standard tuning
Download the TAB under the video



NOVEMBER RAIN ACOUSTIC FINGERPICKING TAB

PDF + GUITAR PRO >>

Intro

e-----------------------------------------------------------------------
B-------5-----5---------5-----5---------5-----5---------5-----5---------
G-----5-----5-----5---5-----5-----5---5-----5-----5---5-----5-----0-----
D---3-----3-----3---3-----3-----3---0-----0-----0---0-----0-----0-------
A-----------------------------------------------------------------------
E-----------------------------------------------------------------------


e-------3-------3---1-------1-------0-------0-------------0-------------
B-----------1-----1-1-----1-----1---1-----1-----1---------------1-------
G---------0---0-----0---0-----0---0-0---0-----0---0-----0-----0---0-----
D-----2-----------------------------2---------------3-------2-----------
A---3-------------------------------------------------------------------
E-----------------------------------------------------------------------


e-----------------------------------------------------------------------
B-------5-----5---------5-----5---------5-----5---------5-----5---------
G-----5-----5-----5---5-----5-----5---5-----5-----5---5-----5-----0-----
D---3-----3-----3---3-----3-----3---0-----0-----0---0-----0-----0-------
A-----------------------------------------------------------------------
E-----------------------------------------------------------------------


e-------3-------3---1-------1-------0-------0-------------------0-------
B-----------1-----1-1-----1-----1---1-----1-----1-------1-----1---0-----
G---------0---0-----0---0-----0---0-0---0-----0---0---0-----0-----------
D-----2-----------------------------2---------------3-----2-------------
A---3-------------------------------------------------------------------
E-----------------------------------------------------------------------

 etc ...