20201206

DEATH OF BLIND BOY FULLER TAB (BROWNIE MCGHEE)


Brownie McGhee - Death of Blind Boy Fuller acoustic blues song
It's in standard tuning with Capo on the 1st fret
Download the TAB under the video



DEATH OF BLIND BOY FULLER TAB

PDF + GUITAR PRO >>


Intro

e-----7'-7'---7-7'--7-7\------------------------------------------------
B-----8'-8'--/9-9---9-9\------------------------------------------------
G-----------------------------------------------------------------------
D-----------------------------------------------------------------------
A-----------------------------------------------------------------------
E-----------------------------------------------------------------------


e-----------0-2/4-4-4-0-0-0-2.-------0.----2---2-2----------------------
B---------------------2-2-2-1.-------------1---1-1----------------------
G-----0h1-----2/4-4-4-3-3-3-2.---0h1-------2---2-2-----2.---------------
D----------------------------------------1-------------1.---------------
A----------------------------------------2-------------2.---------------
E---0--------------------------------0.---------------------0-----------


Verse

e---2/4-4-4-4-4-4-4-4-4-4.----------------------------------------------
B-----------5-5-5-5-5-5-5.----------------------------------------------
G---2/4-4-4-4-4-4-4-4-4-4.----2-----------------------------------------
D-----------------------------2---------2-4-5-2-------------------------
A-----------------------------0---0-3-4---------4\2---------------------
E---------------------------0-----------------------0-------------------


e---------0-3'---0-3'---0---------0---0-0-0-0-0---0---------------------
B----------------0------0-0-----------3-3-3-3-3---3---------------------
G---0h1-------------------2---0h1-----1-1-1-1-1---1---------------------
D---------------------------------------------------2.------------------
A--------------------------------------------------------0--------------
E---------0-----------------------0-------------------------------------

 etc ...