20200914

ZAKK WYLDE FOREVER DOWN SOLO TAB (GAKU)


Black Label Society / Zakk Wylde - Forever Down guitar cover by Gaku
There is a killer guitar solo between 2:28 and 3:01
Download the TAB under the video



FOREVER DOWN SOLO TAB

PDF >>

 - 1 step down tuning -

Solo

d--------12------------12------------12------------12-------------------
A---12h15--15p12--12h15--15p12--12h15--15p12--12h15--15p12--------------
F---------------14------------14------------14------------14------------
C-----------------------------------------------------------------------
G-----------------------------------------------------------------------
D-----------------------------------------------------------------------


d--------12------------12------------12------------12-------------------
A---12h15--15p12--12h15--15p12--12h15--15p12--12h15--15p12--------------
F---------------14------------14------------14------------14------------
C-----------------------------------------------------------------------
G-----------------------------------------------------------------------
D-----------------------------------------------------------------------


d--------14------------14------------14------------14-------------------
A---14h17--17p14--14h17--17p14--14h17--17p14--14h17--17p14--------------
F---------------16------------16------------16------------16------------
C-----------------------------------------------------------------------
G-----------------------------------------------------------------------
D-----------------------------------------------------------------------


d--------15------------15-------------17--------------------------------
A---15h18--18p15--15h18--18p15---17h20--20p17--20p17-20---\-------------
F---------------17------------17-------------19-------------------------
C-----------------------------------------------------------------------
G-----------------------------------------------------------------------
D-----------------------------------------------------------------------


d--------12------------12------------12------------12-------------------
A---12h15--15p12--12h15--15p12--12h15--15p12--12h15--15p12--------------
F---------------14------------14------------14------------14------------
C-----------------------------------------------------------------------
G-----------------------------------------------------------------------
D-----------------------------------------------------------------------

 etc ...