DIRE STRAITS - CALLING ELVIS SOLO TAB (ON THE NIGHT)

 

Dire Straits - Calling Elvis guitar solo cover played by "BigBiiii"
This cover follows the On The Night live album version
Download the TAB under the video 



CALLING ELVIS SOLO TAB

PDF + GUITAR PRO >>

Solo 1

e---10p7-----7----------------------------------------------------------
B-------10p7---10p7---7------7-----------------------------------7------
G-------------------9---9h10---10p9p7.--9p7---7------------------7------
D-------------------------------------------9---9p7------------7--------
A---------------------------------------------------9----7h8h9----------
E-----------------------------------------------------10----------------


e-----------------------------------------------------------------------
B----------------------------------------------------------------7.-----
G-------------------------------------x---x---x---9---(11)--------------
D---9~~~----------------------------------------------------------------
A-----------------------------------------------------------------------
E-----------------------------------------------------------------------


e------------7----------7----------7------------------------------------
B---10p7---7---10p7---7---10p7---7---10p7---7---9(10)(9)(10)-----(9)----
G--------9----------9----------9----------9-----------------------------
D-----------------------------------------------------------------------
A-----------------------------------------------------------------------
E-----------------------------------------------------------------------


e-----------------------------------------------------------------------
B---7~--------7---------------------------------------------------------
G---------------10p9p7---9---7\6----------------------------------------
D----------------------9---9-----9p7-9p7--------------------------------
A----------------------------------------9p7-9--------------------------
E----------------------------------------------10.----------------------


e-----------------------------------------------------------------------
B------------------------------12.--14p12--12---14(15)(14)(15)----------
G---x---14(16)(14)(16)-------------------14-----------------------------
D-----------------------------------------------------------------------
A-----------------------------------------------------------------------
E-----------------------------------------------------------------------


e---12------------------------------------------------------------------
B------(15)(14)---12~---------------------------------------------------
G-----------------------------------------------------------------------
D-----------------------------------------------------------------------
A-----------------------------------------------------------------------
E-----------------------------------------------------------------------

 etc ...