20201120

ERIC CLAPTON SOMEBODY'S KNOCKING SOLO TAB (LIVE)


Eric Clapton - Somebody's Knocking live at The Royal Albert Hall (2015)
There is a "classic Clapton solo" between 0:38 and 1:47
Download this solo TAB under the video



SOMEBODY'S KNOCKING INTRO SOLO TAB

PDF + GUITAR PRO >>

Intro

e-----------------------------------------------------------------------
B-----------------------------------------------------------------------
G-----------------------------------------------------------------------
D---------------5.---5h7-----p5---------------5.------------------------
A-----/7~-----------------------7.---7~---------------------------------
E-----------------------------------------------------------------------


e----------------------------------------------0------------------------
B-----------------------------------------------------------------------
G------------7.---7h9---7.----------------------------------------------
D------7/9-------------------9\7----p5----------------------------------
A--------------------------------------7--------------------------------
E------------------------------------------0----------------------------


e------------------0.---------------------------------------------------
B------------------0.---------------------------------------------------
G---2---p0--------------------------------------------------------------
D---2------2--------------------------5.---5h7-----p5-------------5.----
A----------------------------/7~----------------------7p5-7~------------
E--------------0--------------------------------------------------------


e-----------------------------------------------------------------------
B-----------------------------------------------------------------------
G-------7---9---7.------------------------------------------------------
D---7h9---9----------5h7-----5------------------------------------------
A--------------------5---------7~---/-----------------------------------
E-----------------------------------------------------------------------

 etc ...