20210121

FRANCIS GOYA - MILLION SCARLET ROSES TAB


Million Scarlet Roses instrumental acoustic guitar song played by Francis Goya
2 acoustic guitar lines (rhythm + solo) with Capo on the 1st fret
Download the TAB under the video



MILLION SCARLET ROSES TAB

PDF + GUITAR PRO >>

- CAPO on the 1st -

Intro

e-----------------------------------------------------------------------
B---------1-------1-------1-------1-------1-------1-------1-------1-----
G-------2-------2-------2-------2-------2-------2-------2-------2-------
D-----------0h2-------------0h2-------------0h2-------------0h2---------
A---0---------------0---------------0---------------0-------------------
E-----------------------------------------------------------------------


e-----------------------------------------------------------------------
B---------1-------1-------1-------1-------1-------1-------1-------1-----
G-------2-------2-------2-------2-------2-------2-------2-------2-------
D-----------0h2-------------0h2-------------0h2-------------0h2---------
A---0---------------0---------------0---------------0-------------------
E-----------------------------------------------------------------------


Verse

e-----------------------------------------------------------------------
B---------1-------1-------1-------1-------5---3---3---1---1---3---3-----
G-------2-------2-------2-------2-------5-------4-------2-------4-------
D-----------0h2-------------0h2-----------------------------------------
A---0---------------0---------------0-------0-------0-------0-----------
E-----------------------------------------------------------------------


e-----------------------------------------------------------------------
B---------1-------1-------1-------1-------0---3---3---1---1---0---0-----
G-------2-------2-------2-------2-------1-------4-------2-------1-------
D-----------0h2-------------0h2-----------------------------------------
A---0---------------0---------------------------------------------------
E-----------------------------------0-------0-------0-------0-----------

 etc ...