20210129

LOREENA MCKENNITT - SKELLIG FINGERSTYLE TAB (GEORGE SKAROGIANNIS)


Loreena McKennitt - Skellig fingerstyle guitar cover by George Skarogiannis
It's arranged in DADGAD tuning with Capo on the 3rd fret
Download the TAB under the video



LOREENA MCKENNITT SKELLIG FINGERSTYLE TAB

GUITAR PRO + PDF >>

Intro

d-----------------------------------------------------------------------
A---0-----0-------0-0-----2p0---------0-----0h2-----0-------0-----------
G-------2-----2---------0-----0-----------0-------0-------2-----2-------
D-----2---------2-----0-----------0-----3---------0-----2---------2-----
A---0-------------------------------------------------0-----------------
D-------------------5-----------------3---------5-----------------------


d-----------------------------------------------------------------------
A---3-----3---------0-----2p0---------0-----0-----0-------------0-------
G---2---2-----2---------0-----0-----------0---0-------------2-----------
D-----2---------2-----0-----------0-----3-------0-----0h2---------2-----
A---0-------------------------------------------------0-----------------
D-------------------5-----------------3-------5-------------------------


d-----------------------------------------------------------------------
A---0-------0---2---3-----2p0------------0---0---2p0-----0---------0----
G---2-----0-------0-----2------2p0-----------0-------0---------2--------
D-------2-----0-------2--------------2---------0-------------2-------2--
A---0---------------0----------------0-------------------0--------------
D-----------5--------------------------------5--------------------------


d-------------------------0h2-------------------------------------------
A---0-----0-0---2---3-----------0---0-----0-----0-----------------------
G---2-------------0-----2-----2---0-----0---0-----0---------------------
D-------2-----0-------2---------------3-------0-------------------------
A---0---------------0---------------------------------------------------
D-----------5-----------------------3-------5---------------------------


d-----------------------------------------------------------------------
A---0-----0-------0-------0-----0---------------------------------------
G-------2-----2---------2-----2-----------------------------------------
D-----2---------2-----2-------------------------------------------------
A---0---------------0---------------------------------------------------
D-----------------------------------------------------------------------

 etc ...