BILLY STRINGS - DUST IN A BAGGIE TAB (INTRO SOLO)


Billy Strings plays Dust In A Baggie live "in a quiet room at a loud party"
It's in standard tuning and the intro solo is transcribed
Download the TAB under the video



DUST IN A BAGGIE TAB

PDF + GUITAR PRO >>

Intro

e-------------------------------------3-----3---------------------------
B-------------------------------------3-----3-3-------------------------
G---0-----------------0-----------0---0-----0-0-------------------------
D---0-----------------0-----0-2p0-----0-------0-------------------------
A---x-----------------x---2---------------------------------------------
E---3-0---1---2---3---3-------------------------------------------------


e-----------------------3-----3-3---------------------------------------
B-----------------------3-----3-3---------------------------------------
G-------0-3---0-0-------0-----0-0---------------------------------------
D-----2-----2-----0-0---0-------0---------------------------------------
A---3-------------------------------------------------------------------
E-----------------------------------------------------------------------


e-------3-----3---3---------------------2-----2-------------------------
B-------3-----3-3-3---0---0---0---0-----3-----3-3-3---------------------
G-------0-----0-0-0---------------------2-----2-2-----------------------
D---0---0-------0-------------------0-----------0-----------------------
A---x-------------------2---3---4---------------------------------------
E---3---------------3---------------------------------------------------


e---3-0-----------------------------------------------------------------
B-------3-0-------------------------------------------------------------
G-----------\2p0-----0---------0-0-0---0---0---0---0--------------------
D----------------2p0-----2/5-----5---5---3---2---0----------------------
A-----------------------------------------------------------------------
E-----------------------------------------------------------------------

 etc ...