20210226

CASABLANCA CLASSICAL GUITAR TAB (THU LE)


Bertie Higgins - Casablanca classical guitar cover played by Thu Le
It's arranged in standard tuning and no capo is used
Download the TAB under the video



CASABLANCA CLASSICAL GUITAR TAB

PDF + GUITAR PRO >>


Intro

e-------5-------------------------------5-------------------------------
B-----5-------5.------3.--------5-----5-------5.------3.----------------
G---7-----5-------4-------5---------7-----5-------4-------5-------------
D---7-------------5-------7---------7-------------5-------7-------------
A-----------------------------------------------------------------------
E---------------------------------0-----------------------------0-------


e-------5-------------------------------5-------------------------------
B-----5-------5.------3.--------5-----5-------5.------3.----------------
G---7-----5-------4-------5---------7-----5-------4-------5-------------
D---7-------------5-------7---------7-------------5-------7-------------
A-----------------------------------------------------------------------
E---------------------------------0-----------------------------0-------


Verse

e-----------------------------------------------------------------------
B-----------------------------------------------------------------------
G------4/5~-5~-5p4-4-4-4-2---2---------------2---------------2----------
D----------------------------------5-5-5-----------3-------3-----3---0--
A--0-------------------0---------------5-------------0-5-----------0----
E-----------------------------------------------------------------------


e-----------------------------------------------------------------------
B--------------------------------------------------0---------0----------
G------2h4-4-4p2-2-2-2-0---0-----------------0-------------0-----0------
D----0---------------------------3-3-3-2h3p2-------------2--------------
A------------------------------------3-----------------3----------------
E--3-----------------3-------------------------------3-------------3-0--

 etc ...