20210306

LA CUMPARSITA TANGO CLASSICAL GUITAR TAB (SILVER RAIN)


La Cumparsita - Tango fingerstyle classical guitar cover by "Silver Rain"
It's in standard tuning and she is playing with true passion
Download the TAB under the video



LA CUMPARSITA FINGERSTYLE TAB

GUITAR PRO + PDF >>


Part 1

e---0.---10---7.---4------0-1-0------0----------------------------------
B---0.---9----5.---3------------4.--------------------------------------
G---1.---9----7.---4----------------------------------------------------
D---2.------------------------------------------------------------------
A---2.------------------------------------------------------------------
E---0.------0-0.-----0-0.-----0-0.---0----------------------------------


e---0.---12---8.---5------0-1-0------0----------------------------------
B---1.---10---10.--5------------4.--------------------------------------
G---2.---9----9.---5----------------------------------------------------
D---2.------------------------------------------------------------------
A---0.------0-0.-----0--------------------------------------------------
E----------------------0.-----0-0.---0----------------------------------


e---0.---10---7.---4------0-1-0------0----------------------------------
B---0.---9----5.---3------------4.--------------------------------------
G---1.---9----7.---4----------------------------------------------------
D---2.------------------------------------------------------------------
A---2.------------------------------------------------------------------
E---0.------0-0.-----0-0.-----0-0.---0----------------------------------


e---0.---12---8.---5------0-1-0------0----------------------------------
B---1.---10---10.--5------------4.--------------------------------------
G---2.---9----9.---5----------------------------------------------------
D---2.------------------------------------------------------------------
A---0.------0-0.-----0--------------------------------------------------
E----------------------0.-----0-0.---0----------------------------------


e-------10----10.--10~-----12-13-12-13.---16-\--------------------------
B------10--10------10~--------------------------------------------------
G-----10-----------10~--------------------------------------------------
D---0---------0.---0----------------------------------------------------
A----------0-------------0----------------------------------------------
E-----------------------------------------------------------------------


e---12.---8.---8.---8-----11-12-11-12.---13-\---------------------------
B---9.--------------5---------------------------------------------------
G---9.----9.---9.---5---------------------------------------------------
D-------------------7---------------------------------------------------
A-----------------------0-----------------------------------------------
E---0-------------------------------------------------------------------
 
 etc ...