20210327

BRYAN SUTTON - THE GOOD DEED TAB


Bryan Sutton - The Good Deed relaxing guitar song from the album "Ready To Go"
It's in standard tuning with CAPO on the 1st fret
Download the TAB under the video



BRYAN SUTTON - THE GOOD DEED TAB

PDF + GUITAR PRO >>

Intro

e-----------3-----------3--------------3h5--h6p5p3----------------------
B-------3-----------3-----------------3------------------3h5-------3----
G---0-----------0--------------------0---------------0---------0--------
D-----------------------------------------------------------------------
A-----------------------------------------------------------------------
E-----------------------------------------------------------------------


e---3-------------------5---------------3---------------------------5---
B----3--------------3-------3---------------1-------------------3-------
G-----5-4---------------------------0-----------0-----------2-----------
D-----------5---4---------------4\2-----------------2---0---------------
A-----------------------------------------------------------------------
E-----------------------------------------------------------------------


Part 1

e-----------------------------------------------0---------------0-------
B-----------3---3---------------3-----------3---------------3-----------
G-----------2h4-0h2---------0-----------0---------------0---------------
D-------0---------------0-----------------------------------------------
A-----------------------------------2---------------3-------------------
E---3---------------3---------------------------------------------------


e---0h2---------2-------2h3p2p0---0---------------0---------------0-----
B-----------3---------------------------------0---------------0---------
G-------2-----------2---------------------2---------------2-------------
D---0-------------------------------------------------------------------
A-------------------------------------4---------------4-----------------
E-----------------------------------------------------------------------


e---------------0-----------2---3-----------2-------0-------------------
B-----------3---------------3---3-------3-------3-----------3---0-------
G-------0---------------0-------------------------------0---------------
D-----------------------------------2---2---0---0-----------------------
A---3---------------3-------------------------------3-------------------
E-----------------------------------------------------------------------


e-------------------------------0---------------0-------0-------0-------
B---------------0-------------------------------------------------------
G---------------2-----------2-------1-------1-------2-------4-----------
D-----------2-----------2-----------2---2-------------------------------
A-------2---------------------------2-----------------------------------
E---0---------------0---------------0---------------2-------4-----------

 etc ...