20210416

QUIZAS QUIZAS QUIZAS CLASSICAL GUITAR TAB (THU LE)


Osvaldo Farrés - Quizas Quizas Quizas classical guitar cover played by Thu Le
It's arranged in Dropped D tuning and no capo is used
Download the TAB under the video



QUIZAS QUIZAS QUIZAS CLASSICAL GUITAR TAB

PDF + GUITAR PRO >>

Intro

e-------10~--------------------------------8-\--------------------------
B------10----10---------------------------------------------------------
G-----10----------10---9h10p9-7---9---10--------------------------------
D-----0-----------------------------------------------------------------
A----0------------------------------------------------------------------
D---0-------------------------------------------------------------------


e---6-------------------------------------------------------------------
B-------8---5-------------------8-\-------------------------------------
G-------0-------7---6---------------------------------------------------
D-----------------------8---7-------------------------------------------
A-----------------------------------------------------------------------
D---5-------------------------------------------------------------------


e---1-------1---3---0-------0---1-------------------<12>----------------
B-------3---------------2-----------3-----------------------------------
G-----------1---------------0---------------2---------------------------
D-------3---------------2-------------------3---------------------------
A---1---------------0---------------------------------------------------
D-----------------------------------0-----------------------------------


e-----------------------------------------------------------------------
B-------------------5.--6---------------------------8-----------5-------
G-------4---6---7-------------------7~----------7---------------7-------
D--/7-----------------------------------7---------------5---7.--8-------
A---------------------------5---7.--8-------0---------------------------
D-----------------------0---------------------------5-------------------

 etc ...