20210429

ELLERT NORDMARK - MUCKARTWIST TAB


Ellert Nordmark plays Muckartwist in Roger Paulsson's studio
Easy guitar instrumental with backing track
Download the TAB under the video



ELLERT NORDMARK MUCKARTWIST TAB

PDF + GUITAR PRO >>

Intro

e-----------------------------------------------------------------------
B-----------------------------------------------------------------------
G-----------------------------------------------------------------------
D---3-3-0-0-------------------------------------------------------------
A-----------3-3-0-0-----------------------------------------------------
E-------------------1.--1.--1-------------------------------------------


Part 1

e-----------------------------------------------------------------------
B---------------------------------------1-1-------------3-3---1---------
G-----------------------------------2---------3-2---3-----------3-------
D---------0-3-0---0-3---1-1---0-----------------------------------------
A---1---1-------1---------------3---------------------------------------
E-----------------------------------------------------------------------


e-----------------------------------------------------------------------
B---------------------------------------1-1-----------------------------
G-----------------------------------2---------3-2---3---3-3~~~----------
D---------0-3-0---0-3---1-1---0-----------------------------------------
A---1---1-------1---------------3---------------------------------------
E-----------------------------------------------------------------------


e-----------------------------------------------------------------------
B---------------------------------------1-1-------------3-3---1---------
G-----------------------------------2---------3-2---3-----------3-------
D---------0-3-0---0-3---1-1---0-----------------------------------------
A---1---1-------1---------------3---------------------------------------
E-----------------------------------------------------------------------


e-----------------------------------------------------------------------
B---------------------------------------1-1-----------------------------
G-----------------------------------2---------3-2---3---3-3~~~----------
D---------0-3-0---0-3---1-1---0-----------------------------------------
A---1---1-------1---------------3---------------------------------------
E-----------------------------------------------------------------------

 etc ...