20210509

CAN'T HELP FALLING IN LOVE FINGERSTYLE TAB


Can't Help Falling in Love easy fingerstyle guitar cover played by Michael Lucarelli
It's arranged in standard tuning and no Capo is used
Download the TAB under the video



CAN'T HELP FALLING IN LOVE FINGERSTYLE TAB

PDF + GUITAR PRO >>


e-----------------------------------------------------------------------
B---------1-----------1-------------------------------------------------
G-------0---0-------0---0-----------------------------------------------
D-----2-------2---2-------2---------------------------------------------
A---3-----------3-------------------------------------------------------
E-----------------------------------------------------------------------


e---------------3---------------------------------0---------------------
B---1-----1-----------------1-----1-------------3-----------------------
G-------0---0---------0---------2---2-------2---------------------------
D-----2-------2-----2---2-----2-------2---2---2-------------------------
A---3-------------2-------2-0-----------0-------------------------------
E---------------0-------------------------------------------------------


e---1-----------0-------------------------------------------------------
B---------------------1-----3-------------------------------------------
G---------2---------0---0---------0-----------0---0---------------------
D-------3---3-----2-------2-----0---0-------0---0-----------------------
A-----3---------3-------------2-------2---2-----------------------------
E---1---------1-------------3-----------3-------------------------------


e-------------1-----------3-----------------0---1-----------------------
B-----------1---0-------0---1-----1-----3---1---3-----------------------
G---2-----2-----------0---------2---2---2-------------------------------
D-------3-----------0---------2-------2-0-------------------------------
A-----3-----------2---------0-------------------------------------------
E---1-----------3-------------------------------------------------------


e---0-------------------------------------------------------------------
B---------1-----3-----------1-----1-----------1-------------------------
G-------0---0---------0---------0---0-------0---0-----------------------
D-----2-------2-----0---0-----2-------2---2-------2---------------------
A---3-------------2-------2-3-----------3-------------------------------
E---------------3-------------------------------------------------------

 etc ...