20210621

BILLY STRINGS - MAKE ME A PALLET ON THE FLOOR TAB


Billy Strings plays Make Me a Pallet on the Floor in his Solo Livestream (1-6-2020)
It's in standard tuning with CAPO on the 4th fret
Download the TAB under the video



MAKE ME A PALLET ON THE FLOOR TAB

PDF + GUITAR PRO >>

Intro

e---------------------1-------1-----0-----0-----------------------------
B-------------------1-------1---3/4-----3-------------------------------
G-------0---1---2-------2-2-----------------2p0-------------------------
D-----------------------------------------------------------------------
A-----------------------------------------------------------------------
E-----------------------------------------------------------------------


e-----------------------0-----1-1-1-------------------------------------
B---1-----1-------1-----1---1-1-1-1-------------------------------------
G-----0h2---0-----------0---0-2-2-2-------------------------------------
D-------------2p0-------2---2-------------------------------------------
A-------------------3---------------------------------------------------
E-----------------------------------------------------------------------


e---1.---1-------1-1-1.---1---------0-----------------------------------
B---4.---3---1---1-1-4.---3---1-----------------------------------------
G--------------2----------------0h2-------------------------------------
D-----------------------------------------------------------------------
A-----------------------------------------------------------------------
E-----------------------------------------------------------------------


e-------0-0-------------3-----3---3-------------------------------------
B-------0-0-------------0---0-0-0-0-------------------------------------
G---0-------------------0---0-0-0-0-------------------------------------
D-----------2-0---------0---0-0-0-0-------------------------------------
A---------------2-0---------x---x---------------------------------------
E-------------------3-------3---3---------------------------------------

 etc ...