20210630

STING - FRAGILE TAB (LIVE 2021)


Sting plays Fragile with a single acoustic guitar live in 2021
It's in standard tuning and there is a nice solo at 1:38
Download the TAB under the video



STING - FRAGILE TAB

PDF + GUITAR PRO >>

Intro

e-----------------------------------------------------------------------
B---12--------10.--8---8.--12---12.----8---\-----7.--5---0.--8---8.-----
G-----------------------------------------------------------------------
D---12------10-----9-------12----------9---\---7-----5-------9----------
A------------------------------------0-------0--------------------------
E---0-----0-------------------------------------------------------------


e-----------------------------------------------------------------------
B-----8---------7.--5---5.--4---4.---7---------5.--8~-------------------
G-----------------------------------------------------------------------
D-----9-------7-----5-------4--------7-------5-----9--------------------
A-----------------------------------------------------------------------
E---7-------7----------------------0-------0----------------------------


e-----------------------------------------------------------------------
B----12---\-----10.--8---8.--12---12.----8---\-----7.--5---0.--8---8.---
G-----------------------------------------------------------------------
D----12---\---10-----9-------12----------9---\---7-----5-------9--------
A--------------------------------------0-------0------------------------
E---0-------0-----------------------------------------------------------


e-----------------------------------------------------------------------
B-----8---------7.--5---5.--4---4.---7~--------8.--5--------------------
G-----------------------------------------------------------------------
D-----9-------7-----5-------4--------7-------7-----5--------------------
A-----------------------------------------------------------------------
E---7-------7----------------------0-------0-------0--------------------

 etc ...