20210730

I WILL SURVIVE FINGERSTYLE TAB (RICARDO MATA)


Gloria Gaynor - I Will Survive fingerstyle guitar cover played by Ricardo Mata
It's arranged in standard tuning and no Capo is used
Download the TAB under the video



I WILL SURVIVE FINGERSTYLE TAB

PDF + GUITAR PRO >>


Part 1

e---0-----------------------5-\----1-----------0---1---0----------------
B---------------3---1----------------------3---------------3---1--------
G-----------2--------------------------2--------------------------------
D-------2--------------------------0------------------------------------
A---0-------------------------------------------------------------------
E-----------------------------------------------------------------------


e---------------------------3-------0---------------0-------------------
B---0-------------------------------------------3-------3---1---0-------
G-----------0---2---0-----------------------0---------------------------
D-------0-------------------------------2-------------------------------
A-----------------------------------3-----------------------------------
E---3-------------------------------------------------------------------


e-------------------0--------1-------0----------------------------------
B------------------------------------0---3---1---0----------------------
G---2-------2------------------------1---------------2---1--------------
D-------3-------3--------------------------------------------3----------
A-----------------------------------------------------------------------
E---1--------------------------------0----------------------------------


e-----------------------------------------------------------------------
B-----------------------------------------------------------------------
G-----------------------------------------------------------------------
D---2----h3p2h3p2h3p2h3p2-----------------------------------------------
A-----------------------------------------------------------------------
E---------------------------0-------------------------------------------

 etc ...