20210709

NORMAN BLAKE - RANDALL COLLINS TAB


Norman Blake - Randall Collins acoustic cover played by Riko Hill
It's in standard tuning with Capo on the 3rd fret
Download the TAB under the video



RANDALL COLLINS TAB

PDF + GUITAR PRO >>

Intro

e---0--------0-----0-0-------0---0-0-0-0-----0-----0-0-------0----------
B----0-------0-----0-0-------0---0-0-0-0-----0-----0-0-------0-------0--
G-----0------0-----0-0-------0---0-0-0-0-----0-----0-0-------0-------0--
D------2-----2-------2-------2---2-2-2-2-----2-------2-------2---2------
A-------2------------------------2---2---0h2---------------------2------
E--------0---------------0-------0---0-------------------0-------0------


e-------------------------------3-3-----3-------3-3-----2-----2-2-2-----
B---0.--0.----------------------0-0-----0-------0-0-----3-----3-3-3-----
G---4.--2.--0-----0-------------0-0-----0-------0-0-----2-----2-2-2-----
D-------------0h2---0-----------0-------0---0---0-------0-------0-------
A---------------------0h2-----------0h2-------2-----0-------------------
E---------------------------3-------------------------------------------


e-------------------------------0-0-0---0-0-2---2-2-----0-0-------------
B-------0-0-----0-0-------------0-0-1---1-1-3---3-3-----0-0-------------
G-------0-0-----0-0-------------0-0-0---0-0-2---2-2-----0-0-------------
D-------0-0-0---0-0---------2---2-2-2---2-2-0---0---2---2-2-------------
A---0h2------------0h1p0----2---2---3---3---0-------2---2---------------
E-----------------------3---0---0---3---------------0---0---0-2-3-4-----


e-------0-------0-0-----0-------0-0-0-0-------------------2-------------
B-------2-------2-2-----2-------2-2-2-2-----------------1-----1---0-----
G-------0-------0-0-----0-------0-0-0-0-----------------2-----2-2-0-----
D-------2-------2-2-----2-------2-2-2-2-----------------0-------0-------
A---0---0-------0---0---0-------0---0-0---------------------------------
E-----------0---------------0---------0-3---2---0---2-------------------


e-----------------------------------3---3-3-2---2-2-----0---------------
B-----------------------1-1---------0---0-0-3---3-3-----0---------------
G-----------------------0-0---------0---0-0-2---2-2-----0---------------
D-------------------2---2--0h2p0----0---0---0---0---2---2---------------
A-------0---1---2---3-----------3---2-------0-------2---2---------------
E---3-------------------------------3-------2-------0---0---------------

 etc ...