20210808

MISS THE MISSISSIPPI AND YOU TAB (BILLY STRINGS )


Billy Strings plays Miss the Mississippi and You on Facebook Live (18-4-2017)
It's in standard tuning with CAPO on the 2nd fret
Download the TAB under the video



MISS THE MISSISSIPPI AND YOU TAB

PDF + GUITAR PRO >>

Intro solo

e-----------------0-----0-----------0-----0-----------------------------
B---------------1-1-----1-----1-----1-----1-----------------------------
G---0-------0-----0---2-----2-0-----3-----3-----------------------------
D---2-3---4-----------------------2-------------------------------------
A---------------------------------------3-------------------------------
E-----------------------------------------------------------------------


e---------------1-------------1-----1-----------0-----------------------
B-----1-----1-----1-----1-----1-----1-----------1-----------------------
G-----2-----2---------2-1-----1-----1---------0-0---2-0h2p0-------------
D-----3-----3-----------3-----3-----3---0-1h2---------------2-----------
A---0-3-----3-----------3-----------------------------------------------
E-----------------------------------------------------------------------


e---------------------------0---0-0-------------------------------------
B---------0---0-------------1---1-1---------0---------------------------
G---------0---0-------------0---0-0---------0---------------------------
D---0-----0---0-----------2-------2---------0---------------------------
A-------2---------0-2-3---------------------x---------------------------
E---------------3---------------------2-3-------------------------------


e--0-1.--2-3~----3---5-5/8.--5-3-------0----0-----1---------1-----------
B----------------x---------------------x----x-----1-----------1-----1---
G----------------------------------5--------5-----2---------------2-1---
D-------------------------------------------------3-----------------3---
A-----------------------------------------------0-3---------------------
E-----------------------------------------------------------------------

 etc ...