20210826

OVER THE RAINBOW FINGERSTYLE TAB


Harold Arlen - Over the Rainbow fingerstyle classical guitar cover by Michael Lucarelli
It's arranged in standard tuning and no Capo is used
Download the TAB under the video



SOMEWHERE OVER THE RAINBOW FINGERSTYLE TAB

PDF + GUITAR PRO >>

Part 1

e-------------------8~--------------7----------------7-------8~---------
B---1-----------------------5---------------8---10---8------------------
G-----------0-----------5-------5-------7------------7------------------
D-------2---------------------------------------------------------------
A---3---------------0---------------7----------------7------------------
E---------------7-------------------------------------------------------


e----------------------5~-----------3-----------------------------------
B---1-----------------4---------------------1---0-----------------------
G-----------2--------5------------------0-----------3~----------3-------
D-------3-------3---4---------------------------------------2-----------
A-----------------------------------3-------------------3---------------
E---1-------------------------------------------------------------------


e-------------------3-------1-------0---------------0-------1-----------
B---------------1---1-------1---------------1---3---2-------2-----------
G---2-------2-------1---1---1-----------0-----------0---0---0-----------
D-------3---------------------------------------------------------------
A-----------------------------------3-----------2---0-------------------
E---1---------------1---------------------------------------------------


e-----------------------------------------------------------------------
B---3-------0---1---3-------5~------1-----------------------------------
G-------------------4-------4-----------0-------0-----------0-----------
D-------3-----------3-------3---------------3-------2-------------------
A-----------------------------------3-----------------------------------
E---1---------------3---------------------------------------------------

 etc ...