20210920

BILLY STRINGS - DON'T LET YOUR DEAL GO DOWN TAB


Billy Strings plays Don't Let Your Deal Go Down by Doc Watson (Billy's Insta version)
It's in standard tuning with CAPO on the 3rd fret
Download the TAB under the video



DON'T LET YOUR DEAL GO DOWN TAB

PDF + GUITAR PRO >>

Intro

e-------------------------------------------5-5-----3---3-3-3-----------
B---------------------------------------2-2-2-2-x-x-2---2-2-2-----------
G---------------------------------------2-2-2-2-x-x-2---2-2-2-----------
D-----------0---1---2-------------------2---2---x-x-2---2---2-----------
A-------3---------------3---2---1---0-----------------------------------
E-----------------------------------------------------------------------


e---0-1-2-0-2-5-2-----------x---x-x-0-2-3-0-1-0-------------------------
B-----------------3-0---3---3---3-3-------------3-1-0-------------------
G---------------------2-----2---2-2-------------------2-0---------------
D---------------------------0---0-------------------------2-0---------0-
A-------------------------------------------------------------2---0-2---
E---------------------------------------------------------------3-------


e-----------------------0---------------5-5-5-5-----3---3-3-3-3-0-0-----
B-----------------0-1---1---------------2-2-2-2-x-x-2---2-2-2-2-0-0-----
G-------------0-2-------0---------------2-2-2-2-x-x-2---2-2-2-2-0-------
D-------0-1-2-----------2---------------2---2---x-x-2---2---2-----------
A---3-------------------3---2---1---0-----------------------------------
E-----------------------------------------------------------------------


e-----------------0-------0-------0-----0-3-0---------------------------
B---------3-------------3-----3-3---0-3-------3-0-----------------------
G---------------5-----5-------5-5-----------------3\2-0-----0-----------
D-------4-----4-----4-------4---------------------------2p0---1p0-------
A---2/5-----5-----------------------------------------------------------
E-----------------------------------------------------------------------


e-------0-0-----0-0-----0-----0-0---------------------------------------
B-------1-1---1-1-1-----1-----1-1---------------------------------------
G-------0-0---0-0-0-----0-----0-0---------------------------------------
D-------2-----2-2-------2-------2---------------------------------------
A---3---------------3---------------------------------------------------
E-----------3-----------------------------------------------------------

 etc ...