20210905

IMAGINE FINGERSTYLE TAB (OPEN G TUNING)


John Lennon - Imagine acoustic fingerstyle guitar cover by Jim "Kimo" West
It's arranged in Open G tuning and no Capo is used
Download the TAB under the video



IMAGINE FINGERSTYLE TAB

PDF + GUITAR PRO >>


D----------0---0------------------------0h2p0---------------------------
B---------0--0-----0------1------------1-----1--------------------------
G--------0---------------0------------0---------------------------------
D-------0------4--------2-----------------------------------------------
G---0------------------0------------------------------------------------
D-----------------------------------------------------------------------


D---0---0---0---4------5---------9---7~---------------------------------
B---------0-----------5-------------------------------------------------
G--------------------5-------5/7-----5~---------------------------------
D-----------4-------0---------------------------------------------------
G---0-------------------------------------------------------------------
D-----------------------------------------------------------------------


D---------0---0---------------------------------------------------------
B--------0--0-------7-7-5-----------------------------------------------
G-----------------0-------5-------------0-------------------------------
D-------------4-------------5---5.-2h3h4--------------------------------
G---0-----------------0-------------------------------------------------
D-----------------------------------------------------------------------


D-------0---0-----------------5-----------------------------------------
B---------0-----5/7---5-----5---5---------------------------------------
G------0------0-----------5-------5-------------------------------------
D-----0-----4-----------5-----------0-----------------------------------
G---0-----------------0-------------------------------------------------
D-----------------------------------------------------------------------

 etc ...