20211017

ACOUSTICIAN NOVEMBER RAIN SOLO TAB


Guns N Roses - November Rain acoustic guitar solo cover by Acoustician
It's in standard tuning with a rhythm guitar backing track
Download the TAB under the video



NOVEMBER RAIN ACOUSTIC SOLO TAB


e----------------------7-----------------------------------7------------
B---7/9~-------9p7-9-----9(10)(9)---7---7h9~-------9p7-9-----9(10)(9)\--
G---x---------------------------------8---------------------------------
D---x-------------------------------------------------------------------
A-----------------------------------------------------------------------
E-----------------------------------------------------------------------


e-------------------7~------\-------------------------------------------
B---4-(5)(4)~-------x---------4(5)(4)(5)---(4)~-----\---------7---------
G-------------------x---------------------------------6p4-6/8--\6---4.--
D-------------------x---------------------------------------------------
A-----------------------------------------------------------------------
E-----------------------------------------------------------------------


e--------------------7--------------------------------------------------
B---9~-------9p7-9-----9(10)(9)---7---7h9~-------9p7-9--/12-12/14~--12.-
G---x-------------------------------8-----------------------------------
D---x-------------------------------------------------------------------
A-----------------------------------------------------------------------
E-----------------------------------------------------------------------


e--------------------------------------------12p11--12p11--12(14)---12~-
B---14(16)----------12h14p12--12-12~-----\--------12-----12-------------
G---------------------------13------------------------------------------
D-----------------------------------------------------------------------
A-----------------------------------------------------------------------
E-----------------------------------------------------------------------

 etc ...