20211023

LEDWARD KAAPANA - SALOMILA TAB (LIVE WITH FRAN GUIDRY)


Led Kaapana & Fran Guidry play Salomila slack key guitar song live in Walnut Creek
It's in Open G tuning and Led Kaapana's guitar line is transcribed
Download the TAB under the video



LED KAAPANA - SALOMILA TAB

PDF + GUITAR PRO >>

d----9-----9------10-9-----0---5-------9-----9------10-9-----0---5------
B----------------------8---------------8-----------------8--------------
G--------7---/9--------------4-----4/7-7---7---/9--------------4-----5--
D------0--------0--------0-------0-------0--------0--------0-------0----
G--0-------0---------0-------0-------0-------0---------0-------0--------
D-----------------------------------------------------------------------


d-----7-----7-9--------12---10-9-7---0---9---0---0-4-5-------0-------0--
B------------------------------------------8-------------0-------0------
G---------5------/11---------------5/7---------5-----------0------------
D-------0-------0---------0--------0-------0-------0---------------0----
G------------------------------------------------------0-------4--------
D---0-------0--------0---------0-------0-------0------------------------


d-----2---2p0---0-4-5-------5-------0-----------------------------------
B-------------1---------0-------0---------------------------------------
G-------------------------0---------------------------------------------
D-------0---------0---------------0-------------------------------------
G---------------------0-------0-----------------------------------------
D---0---------0---------------------------------------------------------


d---------5-------5-------5-------0---2-----------2-------2-------0-----
B-----0-------0-------0-------0---------------0-------0-------0---------
G-------0---------------------------------0-----------------------------
D---------------0-------0-------0-------0-------0-------0-------0-------
G---0-------0-------0-------0-------0-------0-------0-------0-----------
D-----------------------------------------------------------------------

 etc ...