20211128

ALBERT KING - THE FEELING SOLO TAB


Albert King - The Feeling from the album called New Orleans Heat (2006)
There is a nice minor blues solo between 1:15 and 2:15
Download the TAB under the video




THE FEELING SOLO TAB

PDF + GUITAR PRO >>

Solo

e----6(10)---6(10)---(6)------------------------------------------------
B-----------------------------------------------------------------------
G-----------------------------------------------------------------------
D-----------------------------------------------------------------------
A-----------------------------------------------------------------------
E-----------------------------------------------------------------------


e---8(10)---6(8)-----6'----------6-8-8(10)---8(10)-(8)(10)--------------
B-----------------------8~----------------------------------------------
G-----------------------------------------------------------------------
D-----------------------------------------------------------------------
A-----------------------------------------------------------------------
E-----------------------------------------------------------------------


e-----8(10)---8'----6'---------6-8-8(10)---6(8)------6'-------6---------
B---------------------8~------------------------------------8---8~~~----
G-----------------------------------------------------------------------
D-----------------------------------------------------------------------
A-----------------------------------------------------------------------
E-----------------------------------------------------------------------


e-------6-6(8)---(6)-8(10)---6(8)---(6)---8'------(10)---6'-3~~~--------
B---8-8-----------------------------------------------------------------
G-----------------------------------------------------------------------
D-----------------------------------------------------------------------
A-----------------------------------------------------------------------
E-----------------------------------------------------------------------

 etc ...