20211117

PRETTY WOMAN FINGERSTYLE TAB


Roy Orbison - Pretty Woman acoustic fingerstyle guitar cover by Larissa Liveir
It's arranged in Standard tuning with Capo on the 2nd fret
Download the TAB under the video



PRETTY WOMAN FINGERSTYLE TAB

PDF + GUITAR PRO >>


e-----------------------------------------------------------------------
B-----------------------------------------------------------------------
G-----------------------------------------------------------------------
D------------0-----------x---x---x------------0-----------x---x---x-----
A----------2-------------x---x---x----------2-------------x---x---x-----
E---0-0-3/4--------------x---x---x---0-0-3/4--------------x---x---x-----


e-----------------------------------------------------------------------
B-----------------------------------------------------------------------
G-----------------------------------------------------------------------
D------------0-4-2-0----------0-4-2-0----------0-4-2-0----------0-4-----
A----------2----------------2----------------2----------------2---------
E---0-0-3/4----------0-0-3/4----------0-0-3/4----------0-0-3/4----------


e-----------------------------------------------------------------------
B---0h2-0-----------0h2-0-----2-----0h2-0-----------0h2-0-----2---------
G-------2-2---2---2-----2-2-------2-----2-2---2---2-----2-2-------2-----
D-------2---2-----------2---2-----------2---2-----------2---2-----------
A-------0-------0-----------------------0-------0-----------------------
E-----------------------2-------2-----------------------2-------2-------


e-------------------------2-2---2---0-----------0-----------2-2-2---0---
B---0h2-0-------------0---0-0---0---0-----3-0-3-0---------0-0-------0---
G-------2-2---2-----2-----1-1---1---1-------1---1---------1-1-------1---
D-------4---4-----4---------2---------------2---2-----------2-----------
A-------5-------5-------------------------------------------------------
E-----------------------0-------0-----0---------------0---------0-----0-


e-----------0-----------------------------------------------------------
B---3---3-0-0-----------------------------------------------------------
G-------1---1-----------------------------------------------------------
D-------2---2-------------------------0-4-2-0----------0-4-2-0----------
A-----------------------------------2----------------2------------------
E-----------------0-----0.---0-0-3/4----------0-0-3/4-------------------

 etc ...