THE LOCOMOTIONS - SKY BLUE TAB (LIVE)


The Locomotions - Sky Blue vintage instrumental guitar song
Live version from the album "Relive the 60's" recorded in 2015
Download the TAB under the video



THE LOCOMOTIONS SKY BLUE TAB

PDF + GUITAR PRO >>

e-----9~------------------9\7-5-4-2-0-0~--------------------------------
B-----10~----------------10\9-7-5-3-2-----------------------------------
G---9-------------------------------------------------------------------
D-----------------------------------------------------------------------
A-----------------------------------------------------------------------
E-----------------------------------------------------------------------


e-----------------------------------------------------------------------
B-----------------------------------------------------------------------
G---2-------1--2--1-----------------------------------------------------
D--------------------2~-----------2-1-0~--------------------------------
A---------------------------4-3-4---------------------------------------
E-----------------------------------------------------------------------


e-----------------------------------------------------------------------
B-----------------------------------------------------------------------
G---1~----------1-------------------------------------------------------
D------------4-----4--0~-----0---0-4-3-2~-------------------------------
A------------------------------4----------------------------------------
E-----------------------------------------------------------------------


e-----------------------------------------------------------------------
B-----------------------------------------------------------------------
G-----------------------------------------------------------------------
D-------2---1---0---4~-------4-4h5-4--------------2-1-0~----------------
A------------------------------------4~-----4-3-4-----------------------
E-----------------------------------------------------------------------


e-----------------------------------------------------------------------
B-----------------------------------------------------------------------
G---1~-------1-1h2-1-----------------------1~---------------------------
D--------------------1~-----1-1-1--2.--4.-------------------------------
A-----------------------------------------------------------------------
E-----------------------------------------------------------------------

 etc ...